The Winery

edited June 2013 in Guitar Tabs

Here is a start on The Winery if anyone wants to help with the other sections please do I'm having trouble with them at the moment.

-----------------------------------------------------------------
The Winery - Sun Kil Moon
-----------------------------------------------------------------

Tuning:DADGAD Capo 3 to play with the album

D|------0-------0------0-------0-|
A|----0-------0------0-------0---|
G|-----0-------0------0-------0--| Intro
D|---0-------0------0-------0----|
A|---------0--------------0------|
D|-0--------------0--------------|

Verse:  

"You moved up to the winery..."

D|------0-------0------0-------0-------0-------0------0-------0--|
A|----0-------0------0-------0-------0-------0------0-------0----|
G|-----0-------0------0-------0-------0-------0------0-------0---| 
D|---0-------0------0-------0-------0-------0------0-------0-----|
A|---------0-------2------0--------------------------------------|
D|-0-----------------------------2--------4------5-------7-------|

"Left my rags for his riches..."

D|------0-------0------0-------0-------0-------0------0-------0--|
A|----0-------0------0-------0-------0-------0------0-------0----|
G|-----0-------0------0-------0-------0-------0------0-------0---|
D|---0-------0------0-------0-------0-------0------0-------0-----|
A|---------------------------------------------------------------|
D|2--------4------5-------7------2--------4------5-------7-------|

Comments

  • Posts: 58

    I think this is my favorite song off of ATL. Nice work.

  • Posts: 43

    So I've completed this song and I'm happy with how it turned out. There are a few places that probably aren't 100% since it's hard to discern from the other instruments that are playing. I even edited to make it easier to read. If you have trouble finger picking it can be strummed throughout.

    -----------------------------------------------------------------
    The Winery - Sun Kil Moon
    -----------------------------------------------------------------
    
    Tuning:DADGAD Capo 3 to play with the album
    
    Part A (Occasionally he slides up the fret 4 and 5 base lines)
    
    D|-----------0----------0----------0----------0-|
    A|------0-----------0----------0----------0-----|
    G|---------0----------0----------0----------0---|
    D|----0-----------0----------0----------0-------|
    A|-------------0---------------------0----------|
    D|-0----------------------0---------------------|  
    
    "You moved up to the winery..."
    
    D|---------0--------0----------0--------0--------0--------0--------0--------0|
    A|-----0--------0----------0--------0--------0--------0--------0--------0----|
    G|-------0--------0----------0--------0--------0--------0--------0--------0--| 
    D|---0--------0----------0--------0--------0--------0--------0--------0------|
    A|----------0--------0h2--------0--------------------------------------------|
    D|-0-------------------------------------2--------4--------5--------7--------|
    
    "Left my rags for his riches..."
    
    D|---------0--------0--------0--------0--------0--------0--------0--------0--|
    A|-----0--------0--------0--------0--------0--------0--------0--------0------| 
    G|-------0--------0--------0--------0--------0--------0--------0--------0----| 
    D|---0--------0--------0--------0--------0--------0--------0--------0--------| 
    A|---------------------------------------------------------------------------| 
    D|-2--------4--------5--------7--------2--------4--------5--------7----------| 
    
    Part B
    
    "Remembering you there with me..."
    
    D|---------0--------0--------0--------0---------0--------0--------0---------0|
    A|-----0--------0--------0--------0--------0---------0--------0---------0----|
    G|-------0--------0--------0--------0---------0--------0--------0---------0--|
    D|---0--------0--------0--------0--------0---------0--------0---------0------|
    A|---------------------------------------------------------------------------|
    D|-8--------8--------8--------8--------7---------7--------7--------7---------|
    
    D|---------0--------0--------0--------0--------0--------0--------0--------0--|
    A|-----0--------0--------0--------0--------0--------0--------0--------0------|
    G|-------0--------0--------0--------0--------0--------0--------0--------0----|
    D|---0--------0--------0--------0--------0--------0--------0--------0--------|
    A|-------------------------------------8--------5--------7--------3----------|
    D|-5--------5--------5--------5----------------------------------------------|
    
    "..win......ter......spring"
    
    D|---------0--------0------------------------------------------------------|
    A|-----0--------0--------0-------0-----0------0-----0-------0-----0------0-|
    G|-------0--------0-----0-------0-----0------0-----0-------0-----0------0--|
    D|---0--------0--------0--0----0--0--0--0---0--0--0--0----0--0--0--0---0--0|
    A|-1--------0----------------0------------0-------------0------------0-----|
    D|-------------------0--------------0-----------0--------------0-----------|
    
    Part C
    
    "Listening to Almeida..."
    
    D|--------------------------------------------------------|
    A|-----0------0-----0------0------0------0------0------0--|
    G|----0------0-----0------0------0------0------0------0---|
    D|---0--0---0--0--0--0---0--0---0--0---0--0---0--0---0--0-|
    A|--------0------------0------1------1------0-------------|
    D|-0-------------0---------------------------------0------|
    
    
    
    | /  slide up
    | \  slide down
    | h  hammer-on
    | p  pull-off
    | ~  vibrato
    | +  harmonic
    | x  Mute note
    
    
    Lyrics
    
    Part A
    
    You moved up to the winery
    I'm down by the oil refinery
    You left my rags for his riches
    Left a note best wishes
    
    Our cats still go out at night
    Cooling in the moonlight
    and the lights of Martinez
    Scatter on the Carquinez
    
    I play guitar 'til morning light
    alone with it I've built my life
    Made some lovers through my skills
    some have lasted others just fill time
    
    Part B
    
    Remembering you there with me
    Taking walks along the sea
    Years fly by cursing us all
    end of summer end of fall
    winter, spring.
    
    Part C
    
    Listening to Almeida (play)
    Pavene for a dead princess
    Tarrega and Albeniz
    and his own discantus
    
    Part B
    
    Santos versus Benitez
    Espada versus Quevas
    Ray Leonard versus Duran
    no more, no more my tv glows
    my ceiling fan hums.
    
    Part C
    
    Iron Mike broke bones
    Julian Bream played the chaconne
    Bobby Fischer took rooks
    Smokin' Joe threw hooks
    
    Robert Burns wrote poems
    Ed Gein dug up bones
    Martin Luther had a dream
    You never did anything
    
    Part A
    
    You're up there in the vineyards
    Using some pretty words
    You eat at French Laundry
    Burning through money
    
    And I'm here eatin' pistacio nuts
    over by the taco truck
    scribblin' words on receipts
    just go on and repeat
    
    I walk along the service stops
    and the antique shops
    come home every evening
    hear the dogs howling
  • Posts: 58

    Great! I'm gonna work on this one soon, thanks!

  • Posts: 43

    Cool. I'm on vacation this week maybe I'll get to that vid for Onward.

Sign In or Register to comment.