Admiral Fell Promises

edited June 2013 in Guitar Tabs

After I started this I saw it on the old forum. This version is more accurate and clearly what is played in a couple of live videos. Straight from album recording:

Admiral Fell Promises – Capo 7

Main Part
D|----------------------------0-----------------|----------------------------0---------------|
A|-------------4------------------------------0-|-------------0----------------------------4-|
E|-----0--------------0---------------0---------|-----0--------------0-------------0---------|
D|---------2--------------2---------------2-----|---------4--------------4-------------0-----|
A|-0--------------------------------------------|-0------------------------------------------|
D|----------------2---------------2-------------|----------------4-------------4-------------|


Break
D|-----------------------------2-------------------|
A|-------------2--------------------------------0--|
E|-----4---------------4----------------4----------|back to main part
D|---------2---------------2----------------2------|
A|-------------------------------------------------|
D|-2---------------2----------------2--------------|



Part 2
D|-----0------0------0------0------0------0------2------2------2------2------2------2---|
A|---7------7------7------7------7------7------4------4------4------2------2------2-----|
E|--------------0--------------------0--------------------0--------------------0--------|
D|-------0--------------------0--------------------0--------------------0---------------|
A|--------------------------------------------------------------------------------------|
D|-7-------------------6-------------------4---------------------2----------------------|


D|-----0------0------0------0------0------0------0------0------0------0------0------0---|
A|---0------0------0------0------0------0------0------0------0------0------0------0-----|
E|--------------0--------------------0--------------------2--------------------0--------|
D|-------0--------------------0--------------------0--------------------2---------------|
A|-2-------------------4-----------------------------------------0----------------------|
D|-----------------------------------------0--------------------------------------------|


Overdubs after Part 2 arr. for 1 guitar. After this part one guitar does some subtle
Harmonies/doubling over the main part, not tabbed here
D|-7------6-----7-----|-4-----2-----------------|-2------0-----2-----|-----------------------|
A|--------------------|-------------------------|-4------2-----4-----|-4-----0---------------|
E|--------------------|-------------------------|--------------------|-5-----0---------------|
D|-7------6-----7-----|-4-----2-----------------|--------------------|-----------------------|
A|--------------------|-------------------------|--------------------|-----------------------|
D|--------------------|-------------------------|--------------------|-----------------------|

Comments

  • Posts: 43

    Sounds good. If only my fingers could keep it going while I sing it.

Sign In or Register to comment.