Caroline Tab

edited June 2013 in Guitar Tabs

Caroline, album version

D|--verse--------------0--------|---------------------0--------|---------------------0------|
A|-------------7----------------|-------------3----------------|-------------5--------------|
G|---------0-------0-------0----|---------0-------0-------0----|---------0-------0-------0--|
D|-----0------------------------|-----0------------------------|-----0----------------------|
A|-7----------------------------|-3----------------------------|-5--------------------------|
E|------------------------------|------------------------------|----------------------------|


D|---------------------0--------||-chorus--------------0--------|---------------------0------|
A|-------------5----------------||-------------0----------------|-------------2--------------|
G|---------0-------0-------0----||---------0-------0-------0----|---------0-------0-------0--|
D|-----0------------------------||-----2------------------------|-----0----------------------|
A|-5----------------------------||-0----------------------------|-2--------------------------|
E|------------------------------||------------------------------|----------------------------|


D|---------------------0--------|---------------------0--------||-last part of chorus-0------|
A|-------------3----------------|-------------3----------------||-------------0--------------|
G|---------0-------0-------0----|---------0-------0-------0----||---------0-------0-------0--|
D|-----0------------------------|-----0------------------------||-----2----------------------|
A|-3----------------------------|-3----------------------------||-0--------------------------|
E|------------------------------|------------------------------||----------------------------|


D|---------------------0--------|---------------------0--------|-----5----4----0------|
A|-------------2----------------|-------------3----------------|--------------------7-|
G|---------0-------0-------0----|---------0-------0-------0----|----------------------|
D|-----0------------------------|-----0------------------------|----------------------|
A|-2----------------------------|-3----------------------------|-3--------------------|
E|------------------------------|------------------------------|----------------------|
Sign In or Register to comment.