Among the Leaves

edited May 2013 in Guitar Tabs

Haven't seen one for this one around so I jotted down since it's been in my head all day.

-----------------------------------------------------------------
Among the Leaves - Sun Kil Moon
-----------------------------------------------------------------
Tabbed by:Jeff Mathys (Ghostnote)


Tuning:DADGAD (Capo 1 to play album version, alt version is without capo)

A pillow lays on cold cement...

D|--0---0---0---0---|
A|--0---0---0---0---|
G|--6---0---2---6---| 
D|--7---0---0---7---| x4
A|--7---2---0---7---|
D|--7---2---0---7---|

On afternoons I walk the graves...

D|--0---0---0---0---|
A|--0---0---0---0---|
G|--4---0---2---6---|
D|--5---0---0---7---| x4
A|--5---0---0---7---|
D|--5---4---0---7---|

How do I tell her I don't care, if she sleeps downstairs.

D|--0---|
A|--0---|
G|--0---| strum through the last line and then back to the top.
D|--0---|
A|--2---|
D|--2---|

Comments

Sign In or Register to comment.