That Bird Has A Broken Wing

edited February 2013 in Guitar Tabs

Here is a quick tab I made for "That Bird Has a Broken Wing". It's my first attempt at transcribing a tune so I know it's not perfect but it's pretty close and I didn't see one out there for this song. I'm hoping to do some more and I have Church of the Pines about halfway done at the moment. If anything, someone might see my poor attempt and come up with a better version. There are a few guys out there from the old forums whose tabs taught me a lot about playing (Pierre21, Mathequation, ultralex) so hopefully this is a way of giving back to the community.

-------------------------------------------------------------------------------
                 That Bird Has a Broken Wing - Sun Kil Moon
-------------------------------------------------------------------------------
Tabbed by: Jeff Mathys (ghostnote)
E-mail: jeff_mathys@hotmail.com

Tuning: DADGAD tuning (Tune down to C, G, C, F, G, C to play along with the album)


D|--3---0----------------0-------0---------------|
A|----0---0------0---0-------0-------0---0---0---|
G|-----------0h2-------0-------0-----------------|  Repeat throughout
D|---------3-------------------------------------|
A|-----------------3-------3---------------------|
D|--0---0--------------------------3---2---0-----|



************************************

| /   slide up
| \   slide down
| h   hammer-on
| p   pull-off
| ~   vibrato
| +   harmonic
| x   Mute note
| b   Bend
| pb  Pre-bend
| br  Bend release
| pbr Pre-bend release
| brb Bend release bend
Sign In or Register to comment.